0
SECTION
2
HEADER
9
$INSUNITS
70
4
9
$ACADVER
1
AC1014
9
$HANDSEED
5
FFFF
0
ENDSEC
0
SECTION
2
TABLES
0
TABLE
2
VPORT
5
8
100
AcDbSymbolTable
0
ENDTAB
0
TABLE
2
LTYPE
5
5
100
AcDbSymbolTable
0
LTYPE
5
14
100
AcDbSymbolTableRecord
100
AcDbLinetypeTableRecord
2
BYBLOCK
70
0
0
LTYPE
5
15
100
AcDbSymbolTableRecord
100
AcDbLinetypeTableRecord
2
BYLAYER
70
0
0
ENDTAB
0
TABLE
2
LAYER
5
2
100
AcDbSymbolTable
70
2
0
LAYER
5
50
100
AcDbSymbolTableRecord
100
AcDbLayerTableRecord
2
0
70
0
6
CONTINUOUS
0
ENDTAB
0
TABLE
2
STYLE
5
3
100
AcDbSymbolTable
70
1
0
STYLE
5
11
100
AcDbSymbolTableRecord
100
AcDbTextStyleTableRecord
2
STANDARD
70
0
0
ENDTAB
0
TABLE
2
VIEW
5
6
100
AcDbSymbolTable
70
0
0
ENDTAB
0
TABLE
2
UCS
5
7
100
AcDbSymbolTable
70
0
0
ENDTAB
0
TABLE
2
APPID
5
9
100
AcDbSymbolTable
70
2
0
APPID
5
12
100
AcDbSymbolTableRecord
100
AcDbRegAppTableRecord
2
ACAD
70
0
0
ENDTAB
0
TABLE
2
DIMSTYLE
5
A
100
AcDbSymbolTable
70
1
0
ENDTAB
0
TABLE
2
BLOCK_RECORD
5
1
100
AcDbSymbolTable
70
1
0
BLOCK_RECORD
5
1F
100
AcDbSymbolTableRecord
100
AcDbBlockTableRecord
2
*MODEL_SPACE
0
BLOCK_RECORD
5
1B
100
AcDbSymbolTableRecord
100
AcDbBlockTableRecord
2
*PAPER_SPACE
0
ENDTAB
0
ENDSEC
0
SECTION
2
BLOCKS
0
BLOCK
5
20
100
AcDbEntity
100
AcDbBlockBegin
2
*MODEL_SPACE
0
ENDBLK
5
21
100
AcDbEntity
100
AcDbBlockEnd
0
BLOCK
5
1C
100
AcDbEntity
100
AcDbBlockBegin
2
*PAPER_SPACE
0
ENDBLK
5
1D
100
AcDbEntity
100
AcDbBlockEnd
0
ENDSEC
0
SECTION
2
ENTITIES
0
CIRCLE
5
100
100
AcDbEntity
8
0
100
AcDbCircle
10
-40.5
20
-19.5
30
0
40
1.0500000000000043
210
0
220
-0
230
1
0
CIRCLE
5
101
100
AcDbEntity
8
0
100
AcDbCircle
10
-40.5
20
19.5
30
0
40
1.0500000000000043
210
0
220
-0
230
1
0
CIRCLE
5
102
100
AcDbEntity
8
0
100
AcDbCircle
10
40.5
20
19.5
30
0
40
1.0499999999999998
210
0
220
-0
230
1
0
CIRCLE
5
103
100
AcDbEntity
8
0
100
AcDbCircle
10
-38.75
20
0
30
0
40
1.4499999999999957
210
0
220
-0
230
1
0
LWPOLYLINE
5
104
100
AcDbEntity
8
0
100
AcDbPolyline
90
8
70
1
43
0.0
10
33.5
20
-19.5
42
0.4142135623730947
10
35.5
20
-17.500000000000007
10
35.5
20
17.500000000000004
42
0.41421356237309537
10
33.500000000000007
20
19.5
10
-33.5
20
19.5
42
0.4142135623730937
10
-35.5
20
17.5
10
-35.500000000000007
20
-17.500000000000007
42
0.41421356237309537
10
-33.5
20
-19.500000000000014
0
CIRCLE
5
105
100
AcDbEntity
8
0
100
AcDbCircle
10
38.75
20
0
30
0
40
1.4500000000000002
210
0
220
-0
230
1
0
CIRCLE
5
106
100
AcDbEntity
8
0
100
AcDbCircle
10
40.5
20
-19.5
30
0
40
1.0499999999999998
210
0
220
-0
230
1
0
LWPOLYLINE
5
107
100
AcDbEntity
8
0
100
AcDbPolyline
90
8
70
1
43
0.0
10
44.810006423364264
20
-22.899239544779476
42
0.43583114437686393
10
46.562737844888758
20
-20.551193305281057
42
-0.090638798824661471
10
46.56273784488873
20
20.551193305280762
42
0.43583114437686293
10
44.81000642336425
20
22.899239544779206
42
0.053824175929529816
10
-44.810006423364342
20
22.899239544778851
42
0.43583114437684356
10
-46.562737844888666
20
20.551193305280584
42
-0.090638798824660027
10
-46.562737844888687
20
-20.551193305280748
42
0.43583114437686382
10
-44.810006423364285
20
-22.899239544779206
42
0.053824175929529816
0
LWPOLYLINE
5
108
100
AcDbEntity
8
0
100
AcDbPolyline
90
8
70
1
43
0.0
10
75.5
20
-69.500000000000014
10
-75.5
20
-69.500000000000014
42
-0.41421356237309476
10
-85.5
20
-59.500000000000021
10
-85.5
20
59.5
42
-0.41421356237309476
10
-75.5
20
69.500000000000014
10
75.5
20
69.500000000000014
42
-0.41421356237309531
10
85.5
20
59.5
10
85.5
20
-59.500000000000021
42
-0.41421356237309476
0
LWPOLYLINE
5
109
100
AcDbEntity
8
0
100
AcDbPolyline
90
20
70
1
43
0.0
10
30.649999999999995
20
-21.000000000000007
10
-30.650000000000006
20
-21.000000000000007
42
-0.41421356237309509
10
-37
20
-14.650000000000007
10
-37
20
-11.000000000000011
10
-37.149999999999999
20
-11.000000000000005
42
-0.41421356237309542
10
-43.5
20
-4.6500000000000092
10
-43.5
20
4.6499999999999959
42
-0.41421356237309465
10
-37.150000000000006
20
10.999999999999996
10
-37
20
10.999999999999993
10
-37
20
14.65
42
-0.41421356237309509
10
-30.650000000000006
20
21
10
30.649999999999999
20
21
42
-0.41421356237309509
10
37
20
14.650000000000002
10
37
20
10.999999999999993
10
37.150000000000013
20
10.999999999999995
42
-0.41421356237309442
10
43.5
20
4.6499999999999959
10
43.5
20
-4.6500000000000092
42
-0.41421356237309509
10
37.149999999999999
20
-11.000000000000011
10
37
20
-11.000000000000011
10
36.999999999999993
20
-14.650000000000006
42
-0.41421356237309509
0
CIRCLE
5
110
100
AcDbEntity
8
0
100
AcDbCircle
10
-40.5
20
-19.5
30
0
40
1.0500000000000043
210
0
220
-0
230
1
0
CIRCLE
5
111
100
AcDbEntity
8
0
100
AcDbCircle
10
-40.5
20
19.5
30
0
40
1.0500000000000043
210
0
220
-0
230
1
0
CIRCLE
5
112
100
AcDbEntity
8
0
100
AcDbCircle
10
40.5
20
19.5
30
0
40
1.0499999999999998
210
0
220
-0
230
1
0
CIRCLE
5
113
100
AcDbEntity
8
0
100
AcDbCircle
10
40.5
20
-19.5
30
0
40
1.0499999999999998
210
0
220
-0
230
1
0
LINE
5
114
100
AcDbEntity
8
0
100
AcDbLine
10
0
20
-60
30
0
11
-1.7763568394002505e-14
21
-30
31
0
0
LINE
5
115
100
AcDbEntity
8
0
100
AcDbLine
10
-2.6645352591003757e-14
20
60
30
0
11
-2.6645352591003757e-14
21
30
31
0
0
ENDSEC
0
SECTION
2
OBJECTS
0
DICTIONARY
5
C
100
AcDbDictionary
3
ACAD_GROUP
350
D
3
ACAD_MLINESTYLE
350
17
0
DICTIONARY
5
D
100
AcDbDictionary
0
DICTIONARY
5
1A
330
C
100
AcDbDictionary
0
DICTIONARY
5
17
100
AcDbDictionary
0
ENDSEC
0
EOF
